Directory Website Promote http://www.freerankdirectory.com/blogs_diaries/technology/ Search Engine Submission - AddMe Basic Finger style lessons ~ Darshtaar-Covers on guitar

Monday, 4 April 2016

Basic Finger style lessons

finger style ( classical )

D------------------------12-14---------------------
G--13-14----------------------13-14--------------
B----------12-15---------------------12-15-------
e -----------------12-15---------------------12-15 

(Continue..)

 G-----------------------------------------14------14-13-12-13
B--------------16-------16-12-16-12-----12---------------
e-12-16-12-----12------------------------------------

-------------------------------------------------------------------------------------------------------------------------------

3 Note per string


E-------------------------------------------5-7-8-
A-----------------------------------5-7-8--------
D--------------------------4-5-7----------------
G------------------4-5-7-----------------------
B----------3-5-7------------------------------
e -3-5-7-------------------------------------

-----------------------------------------------------------------------------------------------------------------------------

Basic cromatic style  (Single cromatic style )

E---------------------------------------------------------4-3-2-1-
A---------------------------------------------4-3-2-1----------
D----------------------------------4-3-2-1-------------------
G-----------------------4-3-2-1----------------------------
B------------4-3-2-1------------------------------------
e -4-3-2-1---------------------------------------------

0 comments:

Post a Comment