Directory Website Promote http://www.freerankdirectory.com/blogs_diaries/technology/ Search Engine Submission - AddMe Basic C scales | Guitar lesson ~ Darshtaar-Covers on guitar

Wednesday, 6 April 2016

Basic C scales | Guitar lesson

                                                      C major scale
e---------------5-7-8-
B------5-6-8----------
G-5-7------------------
D----------------------
A-----------------------
E-----------------------

                                         
                                                        C open scale

e--------------------------
B-------------------0-1---
G------------0-2----------
D----0-2-3----------------
A-3------------------------
E---------------------------


                         
                                             C open double octave scale


e-------------------------------------------0-1-3-5-7-8-
B----------------------------------0-1-3------------------
G----------------------------0-2--------------------------
D-------------------0-2-3---------------------------------
A---------0-2-3-------------------------------------------
E-0-1-3---------------------------------------------------

0 comments:

Post a Comment