Directory Website Promote http://www.freerankdirectory.com/blogs_diaries/technology/ Search Engine Submission - AddMe Aadat guitar chords | Tabs ~ Darshtaar-Covers on guitar

Friday, 8 April 2016

Aadat guitar chords | Tabs

As you know pakistani band JAL is always rocking 
first version relesed in 2004 & there are many tracks of aadat 
like bikhraa hoon zahrili ratein etc but we are going to play aadat sung by 
Farhaan saeed

singer - Farhan saeed
writers-Gohar mumtaz/Atif aslam

chords:- C#m,B,A,B
strumm:- duud-uu-dudu


hold C#m chord then stock (strings ) 4,3,2,1,1,2,3,1,2,3,1,2,3 
now relese your middle finger then again play 4,3,2,1,1,2,3,1,2,3,1,2,3 
now apply this on (Na janay kab say  Umeedain kuch baaki hain
Mujhe phir bhi teri yaad Kyun aathi hai Na janay kab say
)

B-----------5<---------------------5<---------
G-6-4-6----------6-4----6-4-6----------6-4-
D------------------------------------------------

B-------------5------------
G------4------------4-----
D--7------7-----7------6-

Duur(C#m) jitna bhi tum (B)mujh se
Paas (A)teray mein (B)
Ab tho (C#m)aadat si hai (B)mujh ko aisay (A)jeenay mein(B)
Zinda(C#m)gi say koi (B)shikwa
Bhi (A)nahin hai(B)
Ab tho (C#m)zinda hoon mein iss (B)neelay aas(A)man mein(B)

e------------5--------7-
B----5--------------5--
G-6 ----6-------6----- (2)

e------------2--------4---------5---
B----2---------2---------2---------
G-2-----2---------2---------2-----



Chahat (C#m)aisi hai yeh (B)teri
Barr thi (A)ja-ay (B)
Aahat (C#m)aisi hai yeh (B)teri
Mujh ko sa(A)tha-ay (B)
Yaadain (C#m)gehri hain ith(B)nee
Dil doob (A)ja-ay (B)
Aur (C#m)aankhon mein yeh (B)ghum num bun (A)ja-ain(B)

Hey hey (C#m)heyayayay (B)ooooooo (A)ooooo(B)o


e-4-5-4-5-5-5-5-5--------------------
B---------------------7-5-4-4-4-4-4--
G--------------------------------------


e---------------------------
B-4-5-4-----5-5/7--5-4--
G---------6----------------




e-4-5-4-5-5-5-5-5/7-7-9-7-9/11-9-7-7/5-5/7-7/5-4-2---
B---------------------------------------------------------------
G---------------------------------------------------------------






Ab tho (C#m)aadat si hai mujh (B)ko aisay (A)jeenay mein(B)

Hey hey (C#m)heyayayay (B)ooooooo (A)ooooo(B)o
(C#m)Aaaaaaaa (B) aaaaa (A)oooooo (B)ooo

Sabhi yaa (C#m)dain hain(B)
Sabhi baatein (A)hain(B)
Bhula do (C#m)unhay (B)
Mita do (A)unhay(B)

Aaaa(C#m)aaaa(B) aaaa
Aaa(A)aa ooo(B)oooooo

Ab tho (C#m)aadat si hai (B)mujh ko

0 comments:

Post a Comment