Directory Website Promote http://www.freerankdirectory.com/blogs_diaries/technology/ Search Engine Submission - AddMe Tum Hi Ho Tabs | Guitar lesson | Tabs ~ Darshtaar-Covers on guitar

Monday, 4 April 2016

Tum Hi Ho Tabs | Guitar lesson | Tabs

Arijit singh's one of the best track TUM HI HO from the movie Ashiqui 2 
Arijit more well-known with the release of this song now he is flying so high
with his talent 
very Romantic track you can play anywhere anytime 


Singer: Arijit Singh
Music/Lyrics: Mithoon


 INTRO:- ( < = VIBRATO )

E-----------------------------
A----------------------------
D-3--------------------------
G--1----1-3-0---------------
B---1<2---------------------
e------------------------------

HUM TERE BIN AB 

B-------------------11-9-11-------------
e-8-13-11-9--9-8<----------9-8-8-8<--

TERE BINA KYA WAZUD MERA

G----------------------------10-8-10<-
B-11<-11-9--11-11-9-8<------------

 ( 2 times ) for tujhe juda agar ho jaynge to khudse ho jaynge juda also 

TUM HI HO AB TUM HI HO 

G-------------------------------------------------8-10--
B-----9-11<----9-11<---------8-8-11-9<-8-8-------
e 7/8--------8-8---------------------------------------- ( 2 TIMES )


TERE LIYE HI JIYA


G -------------------------5<---5-5-6-6----------------5--
B-6-6-4-4-6<-6<---4-4-----------------6<--6----4-4----
e ------------------3-3---------------------------3-3-------

TERI WAFA NE MUJHKO SAMBHALA


 D---------------------8-6--------------------------------8--6--------
G -6-6-5-6-5-6<-5<-------6-5----6-6-5-6-5-6--5-----------6-5<


MAI JO MIT BHI GAYA TO 

G-7/8-10-10---10-------------------
B-------------8-8--8<-8----------11------
e -------------------------9-9-8-8---8<-

SADA TUJHME RAHE ZINDA

B -----------------------11-9-11-9<-
e-8-12-12-13-12-8-8------------------

TUM HI HO AB TUM HI HO AGAIN .....



( IN NEXT BLOG I'LL EXPLAIN YOU COVER TABS OF TUM HI HO THEME )
 

0 comments:

Post a Comment