Directory Website Promote http://www.freerankdirectory.com/blogs_diaries/technology/ Search Engine Submission - AddMe Pukarta Chala Hoon Tabs | Tabs | Guitar lesson ~ Darshtaar-Covers on guitar

Tuesday, 5 April 2016

Pukarta Chala Hoon Tabs | Tabs | Guitar lesson

 pukarta chala hoon mai evergreen song by sir.Md Rafi




e-----------------------------------------------------------------------------
B------------------------------------------------3-3-2-2---2---------------
G------------------------------------------4-4------------2---4-4-----2---
D-2-2/4--------------4-4-2---2-2-5-5-----------------------------5---4-
A-----------2-2-5-5---------5----------------------------------------------
E--------2------------------------------------------------------------------- (2 TIMES)

e----------------------------------
B-----3-2-3--------------2-5---
G-----------------------4------2-
D-4-------------------------------
A---------------------------------
E----------------------------------

e--------------------------------
B----5-4-5---------------------
G-2---------------2-4---------
D--------------5--------4------
A-------------------------------
E-------------------------------

e-----5-4-3-2-3-2-3-------2-2---2----2-
B--------------------------3------3----3---
G-4--------------------4-------------------- (2 TIMES)


e-2------------2
B----5-2-5------5-2--3-5-3-2
G----------------------------------4-4-4-4-4-4-4-

e----2----2-------------------5-4-5--2-----2
B-------5---2-3-5-3--------------------5-3
G-4-------------------4---4


e-2---10-9-10---7-9-10-9----
B-------------------------------10


e-------7-9-7------------
B-10-----------10/7/5/3-


e-5-4-3-2---------------
B-----------2-3-5-3-----
G----------------------4-

e-10-9-7---7-7-7-7-7--5-5-5/7---
B--------------------------------------


e---7---7---7---7--7-9-10-10-9-
B-7--7---7---7--------------------


e-10-9-7---5-4-5-4-5-4-5-4-5--
B------------------------------------

e----7--6-6-6-6-6-6-6---9-9-7-
B-7-------------------------------

Again first paragraph....

0 comments:

Post a Comment