Directory Website Promote http://www.freerankdirectory.com/blogs_diaries/technology/ Search Engine Submission - AddMe Tum Hi Ho Theme Tabs | Tabs ~ Darshtaar-Covers on guitar

Tuesday, 5 April 2016

Tum Hi Ho Theme Tabs | Tabs


  e-13-15-16-13-15-16----------------------
 B------------------------13-14--14-13-14-



 e-13-15----------------------
 B--------14-13--------------
 G----------------15-13------


 e---------13---------13--13-20-20-18-18-16-18-
B-14-16-----14-16----------------------------------


e-15-15----------20-20-21-20--
B--------17-17-------------------



e-13-13-----------13----13-15-15------------
B---------16-16---------------------16-16-13-


e------------------13---13-15-15--------------
B-13-13-14-14--------------------16-16-13-


e-------------------------------------9-8-
B-14-14-13-14-13-14-13-11-9------( 2 Times)


e--------------------------------9-9-8-8------8<--
B---------------8-8-----8<-8-------------11------
G-7/8-10-10-------10-----------------------------



e-8-12-12-13-13-12-8----------------------
B-------------------------------11-9-11-9< 






e 7/8--------8-8-----------------
B-----9-11<----9-11<------8-8-11-9<-8-8-------
G----------------------------------------------------8-10-- 

0 comments:

Post a Comment