Directory Website Promote http://www.freerankdirectory.com/blogs_diaries/technology/ Search Engine Submission - AddMe Ajeeb Dastan Hai Yeh Guitar tabs | Tabs ~ Darshtaar-Covers on guitar

Tuesday, 5 April 2016

Ajeeb Dastan Hai Yeh Guitar tabs | Tabs


( < = vibrato, / = slide )


e--9/10-8-10-8----------------------
B-------------------10-8/6-6-8/10--


e--9/10-8-10-8----------------------
B-------------------10-8/6-6-6/8--



e--------------------------------------
B-9/10-8-10-8---------------------
G----------------10-9-7-9/7<------

e-9/10-8-10-8----------------------
B---------------10-8---------------
G----------------------10-9-9/10--


e------------------------------------
B---------8-10-11-10-11-8-8/11-
G-9/10-----------------------------

e-9/10-8-10-8---------8/10-10/8--
B----------------11-11--------------
G ------------------------------------

e-11/12-12-12-12/10--10-10/12-10--------
B------------------------------------------8/6<-
G-------------------------------------------------

0 comments:

Post a Comment